ISO-10303-21;
HEADER;
FILE_DESCRIPTION (( 'STEP AP203' ),
    '1' );
FILE_NAME ('Q-ZDWWP-R21-12.7-1064-SHM.STEP',
    '2020-12-22T09:01:24',
    ( '' ),
    ( '' ),
    'SwSTEP 2.0',
    'SolidWorks 2020',
    '' );
FILE_SCHEMA (( 'CONFIG_CONTROL_DESIGN' ));
ENDSEC;

DATA;
#1 = VERTEX_POINT ( 'NONE', #11 ) ;
#2 = ADVANCED_FACE ( 'NONE', ( #190 ), #54, .F. ) ;
#3 = APPLICATION_PROTOCOL_DEFINITION ( 'international standard', 'config_control_design', 1994, #197 ) ;
#4 = ORIENTED_EDGE ( 'NONE', *, *, #164, .T. ) ;
#5 = LOCAL_TIME ( 17, 1, 24.00000000000000000, #212 ) ;
#6 = CARTESIAN_POINT ( 'NONE',  ( -1.614212418857619014, 0.000000000000000000, 0.000000000000000000 ) ) ;
#7 = ORIENTED_EDGE ( 'NONE', *, *, #131, .T. ) ;
#8 = EDGE_LOOP ( 'NONE', ( #49, #97, #34, #59 ) ) ;
#9 = AXIS2_PLACEMENT_3D ( 'NONE', #227, #274, #202 ) ;
#10 = ADVANCED_BREP_SHAPE_REPRESENTATION ( 'Q-ZDWWP-R21-12.7-1064-SHM', ( #298, #39 ), #333 ) ;
#11 = CARTESIAN_POINT ( 'NONE',  ( -2.999999999999999556, 7.776507174585692163E-16, -6.349999999999999645 ) ) ;
#12 = DIRECTION ( 'NONE',  ( 0.000000000000000000, 0.000000000000000000, 1.000000000000000000 ) ) ;
#13 = VERTEX_POINT ( 'NONE', #104 ) ;
#14 = DIRECTION ( 'NONE',  ( 0.000000000000000000, 0.000000000000000000, 1.000000000000000000 ) ) ;
#15 = CIRCLE ( 'NONE', #61, 6.349999999999999645 ) ;
#16 = ORIENTED_EDGE ( 'NONE', *, *, #217, .T. ) ;
#17 = FACE_OUTER_BOUND ( 'NONE', #221, .T. ) ;
#18 = DIRECTION ( 'NONE',  ( 1.000000000000000000, 0.000000000000000000, 0.000000000000000000 ) ) ;
#19 = CARTESIAN_POINT ( 'NONE',  ( 1.500000000000000888, 0.000000000000000000, 0.000000000000000000 ) ) ;
#20 = CARTESIAN_POINT ( 'NONE',  ( -1.500000000000000444, 7.776507174585692163E-16, -6.349999999999999645 ) ) ;
#21 = CARTESIAN_POINT ( 'NONE',  ( 1.500000000000000888, 7.776507174585692163E-16, -6.349999999999999645 ) ) ;
#22 = EDGE_CURVE ( 'NONE', #106, #1, #163, .T. ) ;
#23 = EDGE_LOOP ( 'NONE', ( #231, #38 ) ) ;
#24 = DIRECTION ( 'NONE',  ( -0.000000000000000000, 0.000000000000000000, 1.000000000000000000 ) ) ;
#25 = VERTEX_POINT ( 'NONE', #267 ) ;
#26 = CC_DESIGN_PERSON_AND_ORGANIZATION_ASSIGNMENT ( #286, #189, ( #215 ) ) ;
#27 = CARTESIAN_POINT ( 'NONE',  ( -1.500000000000000444, 0.000000000000000000, 6.349999999999999645 ) ) ;
#28 = CARTESIAN_POINT ( 'NONE',  ( -1.500000000000000444, 0.000000000000000000, 0.000000000000000000 ) ) ;
#29 = APPROVAL_ROLE ( '' ) ;
#30 = ORIENTED_EDGE ( 'NONE', *, *, #164, .F. ) ;
#31 = APPROVAL_DATE_TIME ( #73, #320 ) ;
#32 = CC_DESIGN_APPROVAL ( #81, ( #215 ) ) ;
#33 = CALENDAR_DATE ( 2020, 22, 12 ) ;
#34 = ORIENTED_EDGE ( 'NONE', *, *, #74, .T. ) ;
#35 = VECTOR ( 'NONE', #201, 1000.000000000000000 ) ;
#36 = EDGE_LOOP ( 'NONE', ( #245, #30, #7, #16 ) ) ;
#37 = ADVANCED_FACE ( 'NONE', ( #273 ), #289, .F. ) ;
#38 = ORIENTED_EDGE ( 'NONE', *, *, #158, .F. ) ;
#39 = AXIS2_PLACEMENT_3D ( 'NONE', #216, #12, #159 ) ;
#40 = FACE_OUTER_BOUND ( 'NONE', #85, .T. ) ;
#41 = CC_DESIGN_DATE_AND_TIME_ASSIGNMENT ( #325, #168, ( #335 ) ) ;
#42 = CARTESIAN_POINT ( 'NONE',  ( 1.500000000000000888, 0.000000000000000000, 6.349999999999999645 ) ) ;
#43 = DIRECTION ( 'NONE',  ( -1.000000000000000000, -0.000000000000000000, -0.000000000000000000 ) ) ;
#44 = DIRECTION ( 'NONE',  ( 0.000000000000000000, 0.000000000000000000, 1.000000000000000000 ) ) ;
#45 = FACE_OUTER_BOUND ( 'NONE', #311, .T. ) ;
#46 = VECTOR ( 'NONE', #154, 1000.000000000000000 ) ;
#47 = ADVANCED_FACE ( 'NONE', ( #269 ), #52, .F. ) ;
#48 = CARTESIAN_POINT ( 'NONE',  ( 3.000000000000000888, 7.776507174585692163E-16, -6.349999999999999645 ) ) ;
#49 = ORIENTED_EDGE ( 'NONE', *, *, #22, .F. ) ;
#50 = AXIS2_PLACEMENT_3D ( 'NONE', #124, #69, #309 ) ;
#51 = PERSON_AND_ORGANIZATION ( #108, #188 ) ;
#52 = CYLINDRICAL_SURFACE ( 'NONE', #330, 6.349999999999999645 ) ;
#53 = CC_DESIGN_PERSON_AND_ORGANIZATION_ASSIGNMENT ( #193, #103, ( #208 ) ) ;
#54 = PLANE ( 'NONE',  #308 ) ;
#55 = APPLICATION_PROTOCOL_DEFINITION ( 'international standard', 'config_control_design', 1994, #249 ) ;
#56 = CIRCLE ( 'NONE', #91, 12.69999999999999929 ) ;
#57 = PERSON_AND_ORGANIZATION ( #108, #188 ) ;
#58 = ORIENTED_EDGE ( 'NONE', *, *, #138, .T. ) ;
#59 = ORIENTED_EDGE ( 'NONE', *, *, #167, .T. ) ;
#60 = DIRECTION ( 'NONE',  ( 1.000000000000000000, 0.000000000000000000, 0.000000000000000000 ) ) ;
#61 = AXIS2_PLACEMENT_3D ( 'NONE', #332, #297, #203 ) ;
#62 = DIRECTION ( 'NONE',  ( -1.000000000000000000, -0.000000000000000000, -0.000000000000000000 ) ) ;
#63 = DIRECTION ( 'NONE',  ( 0.000000000000000000, 0.000000000000000000, 1.000000000000000000 ) ) ;
#64 = DIRECTION ( 'NONE',  ( 0.000000000000000000, 0.000000000000000000, 1.000000000000000000 ) ) ;
#65 = LOCAL_TIME ( 17, 1, 24.00000000000000000, #135 ) ;
#66 = DIRECTION ( 'NONE',  ( -1.000000000000000000, -0.000000000000000000, -0.000000000000000000 ) ) ;
#67 = ADVANCED_FACE ( 'NONE', ( #214 ), #194, .F. ) ;
#68 = DIRECTION ( 'NONE',  ( 0.000000000000000000, 0.000000000000000000, -1.000000000000000000 ) ) ;
#69 = DIRECTION ( 'NONE',  ( -1.000000000000000000, -0.000000000000000000, -0.000000000000000000 ) ) ;
#70 = EDGE_LOOP ( 'NONE', ( #79, #196, #117, #152 ) ) ;
#71 = DIRECTION ( 'NONE',  ( 0.000000000000000000, 0.000000000000000000, 1.000000000000000000 ) ) ;
#72 = ORIENTED_EDGE ( 'NONE', *, *, #248, .F. ) ;
#73 = DATE_AND_TIME ( #294, #150 ) ;
#74 = EDGE_CURVE ( 'NONE', #259, #25, #198, .T. ) ;
#75 = LOCAL_TIME ( 17, 1, 24.00000000000000000, #321 ) ;
#76 = DATE_AND_TIME ( #98, #255 ) ;
#77 = EDGE_LOOP ( 'NONE', ( #72, #326 ) ) ;
#78 = APPROVAL_STATUS ( 'not_yet_approved' ) ;
#79 = ORIENTED_EDGE ( 'NONE', *, *, #223, .F. ) ;
#80 = MECHANICAL_CONTEXT ( 'NONE', #197, 'mechanical' ) ;
#81 = APPROVAL ( #126, 'UNSPECIFIED' ) ;
#82 = DIRECTION ( 'NONE',  ( 0.000000000000000000, 0.000000000000000000, 1.000000000000000000 ) ) ;
#83 = PERSON_AND_ORGANIZATION_ROLE ( 'design_supplier' ) ;
#84 = EDGE_LOOP ( 'NONE', ( #122, #185 ) ) ;
#85 = EDGE_LOOP ( 'NONE', ( #94, #58 ) ) ;
#86 = AXIS2_PLACEMENT_3D ( 'NONE', #19, #146, #304 ) ;
#87 = DIRECTION ( 'NONE',  ( 0.000000000000000000, 0.000000000000000000, -1.000000000000000000 ) ) ;
#88 = DIRECTION ( 'NONE',  ( -1.000000000000000000, -0.000000000000000000, -0.000000000000000000 ) ) ;
#89 = CARTESIAN_POINT ( 'NONE',  ( -3.000000000000000000, 6.349999999999999645, 0.000000000000000000 ) ) ;
#90 = CYLINDRICAL_SURFACE ( 'NONE', #253, 12.69999999999999929 ) ;
#91 = AXIS2_PLACEMENT_3D ( 'NONE', #276, #279, #171 ) ;
#92 = DIRECTION ( 'NONE',  ( 0.000000000000000000, 0.000000000000000000, 1.000000000000000000 ) ) ;
#93 = CARTESIAN_POINT ( 'NONE',  ( 3.000000000000000888, 0.000000000000000000, 0.000000000000000000 ) ) ;
#94 = ORIENTED_EDGE ( 'NONE', *, *, #228, .T. ) ;
#95 = AXIS2_PLACEMENT_3D ( 'NONE', #177, #114, #64 ) ;
#96 = DIRECTION ( 'NONE',  ( -1.000000000000000000, -0.000000000000000000, -0.000000000000000000 ) ) ;
#97 = ORIENTED_EDGE ( 'NONE', *, *, #123, .T. ) ;
#98 = CALENDAR_DATE ( 2020, 22, 12 ) ;
#99 = EDGE_LOOP ( 'NONE', ( #206, #295, #283, #166 ) ) ;
#100 = VECTOR ( 'NONE', #302, 1000.000000000000000 ) ;
#101 = PERSON_AND_ORGANIZATION ( #108, #188 ) ;
#102 = DIRECTION ( 'NONE',  ( -1.000000000000000000, -0.000000000000000000, -0.000000000000000000 ) ) ;
#103 = PERSON_AND_ORGANIZATION_ROLE ( 'design_owner' ) ;
#104 = CARTESIAN_POINT ( 'NONE',  ( -3.000000000000000000, 0.000000000000000000, 12.69999999999999929 ) ) ;
#105 = AXIS2_PLACEMENT_3D ( 'NONE', #284, #314, #24 ) ;
#106 = VERTEX_POINT ( 'NONE', #20 ) ;
#107 = EDGE_CURVE ( 'NONE', #315, #310, #323, .T. ) ;
#108 = PERSON ( 'UNSPECIFIED', 'UNSPECIFIED', 'UNSPECIFIED', ('UNSPECIFIED'), ('UNSPECIFIED'), ('UNSPECIFIED') ) ;
#109 = CYLINDRICAL_SURFACE ( 'NONE', #204, 6.349999999999999645 ) ;
#110 = VECTOR ( 'NONE', #252, 1000.000000000000000 ) ;
#111 = CARTESIAN_POINT ( 'NONE',  ( -1.614212418857619014, 0.000000000000000000, 6.349999999999999645 ) ) ;
#112 = AXIS2_PLACEMENT_3D ( 'NONE', #272, #293, #14 ) ;
#113 = LINE ( 'NONE', #254, #110 ) ;
#114 = DIRECTION ( 'NONE',  ( -1.000000000000000000, -0.000000000000000000, -0.000000000000000000 ) ) ;
#115 = DESIGN_CONTEXT ( 'detailed design', #249, 'design' ) ;
#116 = CC_DESIGN_APPROVAL ( #270, ( #335 ) ) ;
#117 = ORIENTED_EDGE ( 'NONE', *, *, #162, .T. ) ;
#118 = CC_DESIGN_PERSON_AND_ORGANIZATION_ASSIGNMENT ( #290, #266, ( #335 ) ) ;
#119 = LINE ( 'NONE', #207, #46 ) ;
#120 = ORIENTED_EDGE ( 'NONE', *, *, #238, .T. ) ;
#121 = DIRECTION ( 'NONE',  ( -1.000000000000000000, 0.000000000000000000, -0.000000000000000000 ) ) ;
#122 = ORIENTED_EDGE ( 'NONE', *, *, #217, .F. ) ;
#123 = EDGE_CURVE ( 'NONE', #106, #259, #137, .T. ) ;
#124 = CARTESIAN_POINT ( 'NONE',  ( 1.500000000000000888, 0.000000000000000000, 0.000000000000000000 ) ) ;
#125 = LINE ( 'NONE', #182, #224 ) ;
#126 = APPROVAL_STATUS ( 'not_yet_approved' ) ;
#127 = CARTESIAN_POINT ( 'NONE',  ( -1.614212418857619014, 0.000000000000000000, 0.000000000000000000 ) ) ;
#128 = AXIS2_PLACEMENT_3D ( 'NONE', #140, #60, #175 ) ;
#129 = ORIENTED_EDGE ( 'NONE', *, *, #248, .T. ) ;
#130 = CC_DESIGN_SECURITY_CLASSIFICATION ( #300, ( #215 ) ) ;
#131 = EDGE_CURVE ( 'NONE', #334, #210, #113, .T. ) ;
#132 = PRODUCT_DEFINITION_SHAPE ( 'NONE', 'NONE',  #335 ) ;
#133 = CALENDAR_DATE ( 2020, 22, 12 ) ;
#134 = EDGE_LOOP ( 'NONE', ( #232, #120, #187, #139 ) ) ;
#135 = COORDINATED_UNIVERSAL_TIME_OFFSET ( 8, 0, .AHEAD. ) ;
#136 = VERTEX_POINT ( 'NONE', #225 ) ;
#137 = CIRCLE ( 'NONE', #128, 6.349999999999999645 ) ;
#138 = EDGE_CURVE ( 'NONE', #136, #13, #56, .T. ) ;
#139 = ORIENTED_EDGE ( 'NONE', *, *, #263, .F. ) ;
#140 = CARTESIAN_POINT ( 'NONE',  ( -1.500000000000000444, 0.000000000000000000, 0.000000000000000000 ) ) ;
#141 = CARTESIAN_POINT ( 'NONE',  ( 3.000000000000000000, 0.000000000000000000, 0.000000000000000000 ) ) ;
#142 = EDGE_CURVE ( 'NONE', #310, #315, #144, .T. ) ;
#143 = DIRECTION ( 'NONE',  ( 0.000000000000000000, 0.000000000000000000, 1.000000000000000000 ) ) ;
#144 = CIRCLE ( 'NONE', #239, 12.69999999999999929 ) ;
#145 = FACE_OUTER_BOUND ( 'NONE', #134, .T. ) ;
#146 = DIRECTION ( 'NONE',  ( -1.000000000000000000, -0.000000000000000000, -0.000000000000000000 ) ) ;
#147 = AXIS2_PLACEMENT_3D ( 'NONE', #299, #62, #143 ) ;
#148 =( LENGTH_UNIT ( ) NAMED_UNIT ( * ) SI_UNIT ( .MILLI., .METRE. ) );
#149 = EDGE_LOOP ( 'NONE', ( #4, #236 ) ) ;
#150 = LOCAL_TIME ( 17, 1, 24.00000000000000000, #240 ) ;
#151 =( NAMED_UNIT ( * ) SI_UNIT ( $, .STERADIAN. ) SOLID_ANGLE_UNIT ( ) );
#152 = ORIENTED_EDGE ( 'NONE', *, *, #131, .F. ) ;
#153 = ADVANCED_FACE ( 'NONE', ( #173, #40 ), #251, .F. ) ;
#154 = DIRECTION ( 'NONE',  ( -1.000000000000000000, -0.000000000000000000, -0.000000000000000000 ) ) ;
#155 = VERTEX_POINT ( 'NONE', #21 ) ;
#156 = CIRCLE ( 'NONE', #86, 6.349999999999999645 ) ;
#157 = AXIS2_PLACEMENT_3D ( 'NONE', #93, #282, #181 ) ;
#158 = EDGE_CURVE ( 'NONE', #1, #25, #15, .T. ) ;
#159 = DIRECTION ( 'NONE',  ( 1.000000000000000000, 0.000000000000000000, 0.000000000000000000 ) ) ;
#160 = DIRECTION ( 'NONE',  ( 0.000000000000000000, 0.000000000000000000, 1.000000000000000000 ) ) ;
#161 = APPROVAL_DATE_TIME ( #244, #270 ) ;
#162 = EDGE_CURVE ( 'NONE', #155, #210, #156, .T. ) ;
#163 = LINE ( 'NONE', #243, #230 ) ;
#164 = EDGE_CURVE ( 'NONE', #334, #234, #312, .T. ) ;
#165 = SECURITY_CLASSIFICATION_LEVEL ( 'unclassified' ) ;
#166 = ORIENTED_EDGE ( 'NONE', *, *, #138, .F. ) ;
#167 = EDGE_CURVE ( 'NONE', #25, #1, #317, .T. ) ;
#168 = DATE_TIME_ROLE ( 'creation_date' ) ;
#169 = CARTESIAN_POINT ( 'NONE',  ( -1.500000000000000444, 6.349999999999999645, 0.000000000000000000 ) ) ;
#170 = ADVANCED_FACE ( 'NONE', ( #145 ), #90, .T. ) ;
#171 = DIRECTION ( 'NONE',  ( 0.000000000000000000, 0.000000000000000000, 1.000000000000000000 ) ) ;
#172 = AXIS2_PLACEMENT_3D ( 'NONE', #6, #96, #71 ) ;
#173 = FACE_BOUND ( 'NONE', #23, .T. ) ;
#174 = UNCERTAINTY_MEASURE_WITH_UNIT (LENGTH_MEASURE( 1.000000000000000082E-05 ), #148, 'distance_accuracy_value', 'NONE');
#175 = DIRECTION ( 'NONE',  ( 0.000000000000000000, 0.000000000000000000, -1.000000000000000000 ) ) ;
#176 = CIRCLE ( 'NONE', #246, 6.349999999999999645 ) ;
#177 = CARTESIAN_POINT ( 'NONE',  ( 3.000000000000000888, 0.000000000000000000, 0.000000000000000000 ) ) ;
#178 = CLOSED_SHELL ( 'NONE', ( #170, #200, #67, #213, #37, #47, #153, #296, #327, #2 ) ) ;
#179 = CARTESIAN_POINT ( 'NONE',  ( 3.000000000000000000, 1.555301434917138433E-15, -12.69999999999999929 ) ) ;
#180 = EDGE_CURVE ( 'NONE', #234, #155, #222, .T. ) ;
#181 = DIRECTION ( 'NONE',  ( 0.000000000000000000, 0.000000000000000000, 1.000000000000000000 ) ) ;
#182 = CARTESIAN_POINT ( 'NONE',  ( -1.614212418857619014, 0.000000000000000000, 12.69999999999999929 ) ) ;
#183 = APPROVAL_PERSON_ORGANIZATION ( #191, #81, #29 ) ;
#184 = AXIS2_PLACEMENT_3D ( 'NONE', #192, #291, #160 ) ;
#185 = ORIENTED_EDGE ( 'NONE', *, *, #162, .F. ) ;
#186 = PERSON_AND_ORGANIZATION ( #108, #188 ) ;
#187 = ORIENTED_EDGE ( 'NONE', *, *, #228, .F. ) ;
#188 = ORGANIZATION ( 'UNSPECIFIED', 'UNSPECIFIED', '' ) ;
#189 = PERSON_AND_ORGANIZATION_ROLE ( 'creator' ) ;
#190 = FACE_OUTER_BOUND ( 'NONE', #77, .T. ) ;
#191 = PERSON_AND_ORGANIZATION ( #108, #188 ) ;
#192 = CARTESIAN_POINT ( 'NONE',  ( -1.614212418857619014, 0.000000000000000000, 0.000000000000000000 ) ) ;
#193 = PERSON_AND_ORGANIZATION ( #108, #188 ) ;
#194 = CYLINDRICAL_SURFACE ( 'NONE', #112, 6.349999999999999645 ) ;
#195 = DIRECTION ( 'NONE',  ( 0.000000000000000000, 0.000000000000000000, -1.000000000000000000 ) ) ;
#196 = ORIENTED_EDGE ( 'NONE', *, *, #180, .T. ) ;
#197 = APPLICATION_CONTEXT ( 'configuration controlled 3d designs of mechanical parts and assemblies' ) ;
#198 = LINE ( 'NONE', #111, #35 ) ;
#199 = CIRCLE ( 'NONE', #50, 6.349999999999999645 ) ;
#200 = ADVANCED_FACE ( 'NONE', ( #17 ), #109, .F. ) ;
#201 = DIRECTION ( 'NONE',  ( -1.000000000000000000, -0.000000000000000000, -0.000000000000000000 ) ) ;
#202 = DIRECTION ( 'NONE',  ( 0.000000000000000000, 0.000000000000000000, 1.000000000000000000 ) ) ;
#203 = DIRECTION ( 'NONE',  ( 0.000000000000000000, 0.000000000000000000, 1.000000000000000000 ) ) ;
#204 = AXIS2_PLACEMENT_3D ( 'NONE', #328, #88, #277 ) ;
#205 = CARTESIAN_POINT ( 'NONE',  ( 3.000000000000000000, 0.000000000000000000, 12.69999999999999929 ) ) ;
#206 = ORIENTED_EDGE ( 'NONE', *, *, #238, .F. ) ;
#207 = CARTESIAN_POINT ( 'NONE',  ( -1.614212418857619014, 1.555301434917138433E-15, -12.69999999999999929 ) ) ;
#208 = PRODUCT ( 'Q-ZDWWP-R21-12.7-1064-SHM', 'Q-ZDWWP-R21-12.7-1064-SHM', '', ( #80 ) ) ;
#209 = CIRCLE ( 'NONE', #305, 12.69999999999999929 ) ;
#210 = VERTEX_POINT ( 'NONE', #42 ) ;
#211 = FACE_BOUND ( 'NONE', #149, .T. ) ;
#212 = COORDINATED_UNIVERSAL_TIME_OFFSET ( 8, 0, .AHEAD. ) ;
#213 = ADVANCED_FACE ( 'NONE', ( #331 ), #278, .F. ) ;
#214 = FACE_OUTER_BOUND ( 'NONE', #70, .T. ) ;
#215 = PRODUCT_DEFINITION_FORMATION_WITH_SPECIFIED_SOURCE ( 'ANY', '', #208, .NOT_KNOWN. ) ;
#216 = CARTESIAN_POINT ( 'NONE',  ( 0.000000000000000000, 0.000000000000000000, 0.000000000000000000 ) ) ;
#217 = EDGE_CURVE ( 'NONE', #210, #155, #199, .T. ) ;
#218 = COORDINATED_UNIVERSAL_TIME_OFFSET ( 8, 0, .AHEAD. ) ;
#219 = DIRECTION ( 'NONE',  ( -1.000000000000000000, -0.000000000000000000, -0.000000000000000000 ) ) ;
#220 = APPROVAL_PERSON_ORGANIZATION ( #186, #270, #318 ) ;
#221 = EDGE_LOOP ( 'NONE', ( #129, #257, #319, #265 ) ) ;
#222 = LINE ( 'NONE', #301, #100 ) ;
#223 = EDGE_CURVE ( 'NONE', #234, #334, #285, .T. ) ;
#224 = VECTOR ( 'NONE', #235, 1000.000000000000000 ) ;
#225 = CARTESIAN_POINT ( 'NONE',  ( -3.000000000000000000, 1.555301434917138433E-15, -12.69999999999999929 ) ) ;
#226 = DIRECTION ( 'NONE',  ( -1.000000000000000000, -0.000000000000000000, -0.000000000000000000 ) ) ;
#227 = CARTESIAN_POINT ( 'NONE',  ( -2.999999999999999556, 0.000000000000000000, 0.000000000000000000 ) ) ;
#228 = EDGE_CURVE ( 'NONE', #13, #136, #209, .T. ) ;
#229 =( NAMED_UNIT ( * ) PLANE_ANGLE_UNIT ( ) SI_UNIT ( $, .RADIAN. ) );
#230 = VECTOR ( 'NONE', #102, 1000.000000000000000 ) ;
#231 = ORIENTED_EDGE ( 'NONE', *, *, #167, .F. ) ;
#232 = ORIENTED_EDGE ( 'NONE', *, *, #142, .T. ) ;
#233 = CARTESIAN_POINT ( 'NONE',  ( 1.500000000000000444, 6.349999999999999645, 0.000000000000000000 ) ) ;
#234 = VERTEX_POINT ( 'NONE', #48 ) ;
#235 = DIRECTION ( 'NONE',  ( -1.000000000000000000, -0.000000000000000000, -0.000000000000000000 ) ) ;
#236 = ORIENTED_EDGE ( 'NONE', *, *, #223, .T. ) ;
#237 = SHAPE_DEFINITION_REPRESENTATION ( #132, #10 ) ;
#238 = EDGE_CURVE ( 'NONE', #315, #136, #119, .T. ) ;
#239 = AXIS2_PLACEMENT_3D ( 'NONE', #141, #226, #44 ) ;
#240 = COORDINATED_UNIVERSAL_TIME_OFFSET ( 8, 0, .AHEAD. ) ;
#241 = CC_DESIGN_PERSON_AND_ORGANIZATION_ASSIGNMENT ( #101, #271, ( #300 ) ) ;
#242 = CALENDAR_DATE ( 2020, 22, 12 ) ;
#243 = CARTESIAN_POINT ( 'NONE',  ( -1.614212418857619014, 7.776507174585692163E-16, -6.349999999999999645 ) ) ;
#244 = DATE_AND_TIME ( #33, #75 ) ;
#245 = ORIENTED_EDGE ( 'NONE', *, *, #180, .F. ) ;
#246 = AXIS2_PLACEMENT_3D ( 'NONE', #28, #260, #68 ) ;
#247 = CARTESIAN_POINT ( 'NONE',  ( -1.614212418857619014, 0.000000000000000000, 0.000000000000000000 ) ) ;
#248 = EDGE_CURVE ( 'NONE', #259, #106, #176, .T. ) ;
#249 = APPLICATION_CONTEXT ( 'configuration controlled 3d designs of mechanical parts and assemblies' ) ;
#250 = PRODUCT_RELATED_PRODUCT_CATEGORY ( 'detail', '', ( #208 ) ) ;
#251 = PLANE ( 'NONE',  #306 ) ;
#252 = DIRECTION ( 'NONE',  ( -1.000000000000000000, -0.000000000000000000, -0.000000000000000000 ) ) ;
#253 = AXIS2_PLACEMENT_3D ( 'NONE', #247, #43, #63 ) ;
#254 = CARTESIAN_POINT ( 'NONE',  ( -1.614212418857619014, 0.000000000000000000, 6.349999999999999645 ) ) ;
#255 = LOCAL_TIME ( 17, 1, 24.00000000000000000, #218 ) ;
#256 = PLANE ( 'NONE',  #105 ) ;
#257 = ORIENTED_EDGE ( 'NONE', *, *, #22, .T. ) ;
#258 = CARTESIAN_POINT ( 'NONE',  ( -3.000000000000000000, 0.000000000000000000, 0.000000000000000000 ) ) ;
#259 = VERTEX_POINT ( 'NONE', #27 ) ;
#260 = DIRECTION ( 'NONE',  ( 1.000000000000000000, 0.000000000000000000, 0.000000000000000000 ) ) ;
#261 = DIRECTION ( 'NONE',  ( -0.000000000000000000, 0.000000000000000000, 1.000000000000000000 ) ) ;
#262 = APPROVAL_PERSON_ORGANIZATION ( #51, #320, #288 ) ;
#263 = EDGE_CURVE ( 'NONE', #310, #13, #125, .T. ) ;
#264 = DATE_AND_TIME ( #242, #5 ) ;
#265 = ORIENTED_EDGE ( 'NONE', *, *, #74, .F. ) ;
#266 = PERSON_AND_ORGANIZATION_ROLE ( 'creator' ) ;
#267 = CARTESIAN_POINT ( 'NONE',  ( -2.999999999999999556, 0.000000000000000000, 6.349999999999999645 ) ) ;
#268 = APPROVAL_STATUS ( 'not_yet_approved' ) ;
#269 = FACE_OUTER_BOUND ( 'NONE', #8, .T. ) ;
#270 = APPROVAL ( #78, 'UNSPECIFIED' ) ;
#271 = PERSON_AND_ORGANIZATION_ROLE ( 'classification_officer' ) ;
#272 = CARTESIAN_POINT ( 'NONE',  ( -1.614212418857619014, 0.000000000000000000, 0.000000000000000000 ) ) ;
#273 = FACE_OUTER_BOUND ( 'NONE', #36, .T. ) ;
#274 = DIRECTION ( 'NONE',  ( -1.000000000000000000, -0.000000000000000000, -0.000000000000000000 ) ) ;
#275 = CC_DESIGN_DATE_AND_TIME_ASSIGNMENT ( #264, #316, ( #300 ) ) ;
#276 = CARTESIAN_POINT ( 'NONE',  ( -3.000000000000000000, 0.000000000000000000, 0.000000000000000000 ) ) ;
#277 = DIRECTION ( 'NONE',  ( 0.000000000000000000, 0.000000000000000000, 1.000000000000000000 ) ) ;
#278 = PLANE ( 'NONE',  #329 ) ;
#279 = DIRECTION ( 'NONE',  ( -1.000000000000000000, -0.000000000000000000, -0.000000000000000000 ) ) ;
#280 = CC_DESIGN_APPROVAL ( #320, ( #300 ) ) ;
#281 = FACE_OUTER_BOUND ( 'NONE', #99, .T. ) ;
#282 = DIRECTION ( 'NONE',  ( -1.000000000000000000, -0.000000000000000000, -0.000000000000000000 ) ) ;
#283 = ORIENTED_EDGE ( 'NONE', *, *, #263, .T. ) ;
#284 = CARTESIAN_POINT ( 'NONE',  ( 3.000000000000000000, 12.69999999999999929, 0.000000000000000000 ) ) ;
#285 = CIRCLE ( 'NONE', #157, 6.349999999999999645 ) ;
#286 = PERSON_AND_ORGANIZATION ( #108, #188 ) ;
#287 = ORIENTED_EDGE ( 'NONE', *, *, #142, .F. ) ;
#288 = APPROVAL_ROLE ( '' ) ;
#289 = CYLINDRICAL_SURFACE ( 'NONE', #184, 6.349999999999999645 ) ;
#290 = PERSON_AND_ORGANIZATION ( #108, #188 ) ;
#291 = DIRECTION ( 'NONE',  ( -1.000000000000000000, -0.000000000000000000, -0.000000000000000000 ) ) ;
#292 = APPROVAL_DATE_TIME ( #76, #81 ) ;
#293 = DIRECTION ( 'NONE',  ( -1.000000000000000000, -0.000000000000000000, -0.000000000000000000 ) ) ;
#294 = CALENDAR_DATE ( 2020, 22, 12 ) ;
#295 = ORIENTED_EDGE ( 'NONE', *, *, #107, .T. ) ;
#296 = ADVANCED_FACE ( 'NONE', ( #281 ), #313, .T. ) ;
#297 = DIRECTION ( 'NONE',  ( -1.000000000000000000, -0.000000000000000000, -0.000000000000000000 ) ) ;
#298 = MANIFOLD_SOLID_BREP ( 'Ðý×', #178 ) ;
#299 = CARTESIAN_POINT ( 'NONE',  ( 3.000000000000000000, 0.000000000000000000, 0.000000000000000000 ) ) ;
#300 = SECURITY_CLASSIFICATION ( '', '', #165 ) ;
#301 = CARTESIAN_POINT ( 'NONE',  ( -1.614212418857619014, 7.776507174585692163E-16, -6.349999999999999645 ) ) ;
#302 = DIRECTION ( 'NONE',  ( -1.000000000000000000, -0.000000000000000000, -0.000000000000000000 ) ) ;
#303 = CC_DESIGN_PERSON_AND_ORGANIZATION_ASSIGNMENT ( #57, #83, ( #215 ) ) ;
#304 = DIRECTION ( 'NONE',  ( 0.000000000000000000, 0.000000000000000000, 1.000000000000000000 ) ) ;
#305 = AXIS2_PLACEMENT_3D ( 'NONE', #258, #66, #92 ) ;
#306 = AXIS2_PLACEMENT_3D ( 'NONE', #89, #18, #87 ) ;
#307 = CARTESIAN_POINT ( 'NONE',  ( 3.000000000000000888, 0.000000000000000000, 6.349999999999999645 ) ) ;
#308 = AXIS2_PLACEMENT_3D ( 'NONE', #169, #324, #195 ) ;
#309 = DIRECTION ( 'NONE',  ( 0.000000000000000000, 0.000000000000000000, 1.000000000000000000 ) ) ;
#310 = VERTEX_POINT ( 'NONE', #205 ) ;
#311 = EDGE_LOOP ( 'NONE', ( #287, #322 ) ) ;
#312 = CIRCLE ( 'NONE', #95, 6.349999999999999645 ) ;
#313 = CYLINDRICAL_SURFACE ( 'NONE', #172, 12.69999999999999929 ) ;
#314 = DIRECTION ( 'NONE',  ( -1.000000000000000000, 0.000000000000000000, -0.000000000000000000 ) ) ;
#315 = VERTEX_POINT ( 'NONE', #179 ) ;
#316 = DATE_TIME_ROLE ( 'classification_date' ) ;
#317 = CIRCLE ( 'NONE', #9, 6.349999999999999645 ) ;
#318 = APPROVAL_ROLE ( '' ) ;
#319 = ORIENTED_EDGE ( 'NONE', *, *, #158, .T. ) ;
#320 = APPROVAL ( #268, 'UNSPECIFIED' ) ;
#321 = COORDINATED_UNIVERSAL_TIME_OFFSET ( 8, 0, .AHEAD. ) ;
#322 = ORIENTED_EDGE ( 'NONE', *, *, #107, .F. ) ;
#323 = CIRCLE ( 'NONE', #147, 12.69999999999999929 ) ;
#324 = DIRECTION ( 'NONE',  ( 1.000000000000000000, 0.000000000000000000, 0.000000000000000000 ) ) ;
#325 = DATE_AND_TIME ( #133, #65 ) ;
#326 = ORIENTED_EDGE ( 'NONE', *, *, #123, .F. ) ;
#327 = ADVANCED_FACE ( 'NONE', ( #45, #211 ), #256, .F. ) ;
#328 = CARTESIAN_POINT ( 'NONE',  ( -1.614212418857619014, 0.000000000000000000, 0.000000000000000000 ) ) ;
#329 = AXIS2_PLACEMENT_3D ( 'NONE', #233, #121, #261 ) ;
#330 = AXIS2_PLACEMENT_3D ( 'NONE', #127, #219, #82 ) ;
#331 = FACE_OUTER_BOUND ( 'NONE', #84, .T. ) ;
#332 = CARTESIAN_POINT ( 'NONE',  ( -2.999999999999999556, 0.000000000000000000, 0.000000000000000000 ) ) ;
#333 =( GEOMETRIC_REPRESENTATION_CONTEXT ( 3 ) GLOBAL_UNCERTAINTY_ASSIGNED_CONTEXT ( ( #174 ) ) GLOBAL_UNIT_ASSIGNED_CONTEXT ( ( #148, #229, #151 ) ) REPRESENTATION_CONTEXT ( 'NONE', 'WORKASPACE' ) );
#334 = VERTEX_POINT ( 'NONE', #307 ) ;
#335 = PRODUCT_DEFINITION ( 'UNKNOWN', '', #215, #115 ) ;
ENDSEC;
END-ISO-10303-21;
